  0
SECTION
  2
HEADER
  9
$ACADVER
  1
AC1015
  9
$ACADMAINTVER
 70
     6
  9
$DWGCODEPAGE
  3
ANSI_1252
  9
$INSBASE
 10
0.0
 20
0.0
 30
0.0
  9
$EXTMIN
 10
0.0
 20
0.0
 30
0.0
  9
$EXTMAX
 10
420.0
 20
297.0
 30
0.0
  9
$LIMMIN
 10
0.0
 20
0.0
  9
$LIMMAX
 10
420.0
 20
297.0
  9
$ORTHOMODE
 70
     0
  9
$REGENMODE
 70
     1
  9
$FILLMODE
 70
     1
  9
$QTEXTMODE
 70
     0
  9
$MIRRTEXT
 70
     1
  9
$LTSCALE
 40
1.0
  9
$ATTMODE
 70
     1
  9
$TEXTSIZE
 40
3.5
  9
$TRACEWID
 40
1.0
  9
$TEXTSTYLE
  7
Standard
  9
$CLAYER
  8
0
  9
$CELTYPE
  6
ByLayer
  9
$CECOLOR
 62
   256
  9
$CELTSCALE
 40
1.0
  9
$DISPSILH
 70
     0
  9
$DIMSCALE
 40
1.0
  9
$DIMASZ
 40
3.302
  9
$DIMEXO
 40
1.0
  9
$DIMDLI
 40
3.75
  9
$DIMRND
 40
0.0
  9
$DIMDLE
 40
0.0
  9
$DIMEXE
 40
1.0
  9
$DIMTP
 40
0.0
  9
$DIMTM
 40
0.0
  9
$DIMTXT
 40
3.5
  9
$DIMCEN
 40
2.5
  9
$DIMTSZ
 40
0.0
  9
$DIMTOL
 70
     0
  9
$DIMLIM
 70
     0
  9
$DIMTIH
 70
     1
  9
$DIMTOH
 70
     1
  9
$DIMSE1
 70
     0
  9
$DIMSE2
 70
     0
  9
$DIMTAD
 70
     1
  9
$DIMZIN
 70
     0
  9
$DIMBLK
  1

  9
$DIMASO
 70
     1
  9
$DIMSHO
 70
     1
  9
$DIMPOST
  1

  9
$DIMAPOST
  1

  9
$DIMALT
 70
     0
  9
$DIMALTD
 70
     3
  9
$DIMALTF
 40
0.0393700787
  9
$DIMLFAC
 40
1.0
  9
$DIMTOFL
 70
     1
  9
$DIMTVP
 40
0.0
  9
$DIMTIX
 70
     0
  9
$DIMSOXD
 70
     0
  9
$DIMSAH
 70
     0
  9
$DIMBLK1
  1

  9
$DIMBLK2
  1

  9
$DIMSTYLE
  2
ISO-25
  9
$DIMCLRD
 70
     0
  9
$DIMCLRE
 70
     0
  9
$DIMCLRT
 70
     0
  9
$DIMTFAC
 40
1.0
  9
$DIMGAP
 40
1.524
  9
$DIMJUST
 70
     0
  9
$DIMSD1
 70
     0
  9
$DIMSD2
 70
     0
  9
$DIMTOLJ
 70
     0
  9
$DIMTZIN
 70
     0
  9
$DIMALTZ
 70
     0
  9
$DIMALTTZ
 70
     0
  9
$DIMUPT
 70
     0
  9
$DIMDEC
 70
     2
  9
$DIMTDEC
 70
     2
  9
$DIMALTU
 70
     2
  9
$DIMALTTD
 70
     3
  9
$DIMTXSTY
  7
Standard
  9
$DIMAUNIT
 70
     0
  9
$DIMADEC
 70
     2
  9
$DIMALTRND
 40
0.0
  9
$DIMAZIN
 70
     0
  9
$DIMDSEP
 70
    44
  9
$DIMATFIT
 70
     3
  9
$DIMFRAC
 70
     0
  9
$DIMLDRBLK
  1

  9
$DIMLUNIT
 70
     2
  9
$DIMLWD
 70
    -2
  9
$DIMLWE
 70
    -2
  9
$DIMTMOVE
 70
     0
  9
$LUNITS
 70
     2
  9
$LUPREC
 70
     2
  9
$SKETCHINC
 40
1.0
  9
$FILLETRAD
 40
10.0
  9
$AUNITS
 70
     0
  9
$AUPREC
 70
     2
  9
$MENU
  1
.
  9
$ELEVATION
 40
0.0
  9
$PELEVATION
 40
0.0
  9
$THICKNESS
 40
0.0
  9
$LIMCHECK
 70
     0
  9
$CHAMFERA
 40
0.0
  9
$CHAMFERB
 40
0.0
  9
$CHAMFERC
 40
0.0
  9
$CHAMFERD
 40
0.0
  9
$SKPOLY
 70
     0
  9
$TDCREATE
 40
2459284.694948877
  9
$TDUCREATE
 40
2459284.653282211
  9
$TDUPDATE
 40
2459284.694949039
  9
$TDUUPDATE
 40
2459284.653282373
  9
$TDINDWG
 40
0.0000000116
  9
$TDUSRTIMER
 40
0.0000000116
  9
$USRTIMER
 70
     1
  9
$ANGBASE
 50
0.0
  9
$ANGDIR
 70
     0
  9
$PDMODE
 70
     0
  9
$PDSIZE
 40
-1.0
  9
$PLINEWID
 40
0.0
  9
$SPLFRAME
 70
     0
  9
$SPLINETYPE
 70
     6
  9
$SPLINESEGS
 70
     8
  9
$HANDSEED
  5
11E
  9
$SURFTAB1
 70
     6
  9
$SURFTAB2
 70
     6
  9
$SURFTYPE
 70
     6
  9
$SURFU
 70
     6
  9
$SURFV
 70
     6
  9
$UCSBASE
  2

  9
$UCSNAME
  2

  9
$UCSORG
 10
0.0
 20
0.0
 30
0.0
  9
$UCSXDIR
 10
1.0
 20
0.0
 30
0.0
  9
$UCSYDIR
 10
0.0
 20
1.0
 30
0.0
  9
$UCSORTHOREF
  2

  9
$UCSORTHOVIEW
 70
     0
  9
$UCSORGTOP
 10
0.0
 20
0.0
 30
0.0
  9
$UCSORGBOTTOM
 10
0.0
 20
0.0
 30
0.0
  9
$UCSORGLEFT
 10
0.0
 20
0.0
 30
0.0
  9
$UCSORGRIGHT
 10
0.0
 20
0.0
 30
0.0
  9
$UCSORGFRONT
 10
0.0
 20
0.0
 30
0.0
  9
$UCSORGBACK
 10
0.0
 20
0.0
 30
0.0
  9
$PUCSBASE
  2

  9
$PUCSNAME
  2

  9
$PUCSORG
 10
0.0
 20
0.0
 30
0.0
  9
$PUCSXDIR
 10
1.0
 20
0.0
 30
0.0
  9
$PUCSYDIR
 10
0.0
 20
1.0
 30
0.0
  9
$PUCSORTHOREF
  2

  9
$PUCSORTHOVIEW
 70
     0
  9
$PUCSORGTOP
 10
0.0
 20
0.0
 30
0.0
  9
$PUCSORGBOTTOM
 10
0.0
 20
0.0
 30
0.0
  9
$PUCSORGLEFT
 10
0.0
 20
0.0
 30
0.0
  9
$PUCSORGRIGHT
 10
0.0
 20
0.0
 30
0.0
  9
$PUCSORGFRONT
 10
0.0
 20
0.0
 30
0.0
  9
$PUCSORGBACK
 10
0.0
 20
0.0
 30
0.0
  9
$USERI1
 70
     0
  9
$USERI2
 70
     0
  9
$USERI3
 70
     0
  9
$USERI4
 70
     0
  9
$USERI5
 70
     0
  9
$USERR1
 40
0.0
  9
$USERR2
 40
0.0
  9
$USERR3
 40
0.0
  9
$USERR4
 40
0.0
  9
$USERR5
 40
0.0
  9
$WORLDVIEW
 70
     1
  9
$SHADEDGE
 70
     3
  9
$SHADEDIF
 70
    70
  9
$TILEMODE
 70
     1
  9
$MAXACTVP
 70
    64
  9
$PINSBASE
 10
0.0
 20
0.0
 30
0.0
  9
$PLIMCHECK
 70
     0
  9
$PEXTMIN
 10
1.0000000000E+20
 20
1.0000000000E+20
 30
1.0000000000E+20
  9
$PEXTMAX
 10
-1.0000000000E+20
 20
-1.0000000000E+20
 30
-1.0000000000E+20
  9
$PLIMMIN
 10
0.0
 20
0.0
  9
$PLIMMAX
 10
420.0
 20
297.0
  9
$UNITMODE
 70
     0
  9
$VISRETAIN
 70
     1
  9
$PLINEGEN
 70
     0
  9
$PSLTSCALE
 70
     1
  9
$TREEDEPTH
 70
  3020
  9
$CMLSTYLE
  2
Standard
  9
$CMLJUST
 70
     0
  9
$CMLSCALE
 40
20.0
  9
$PROXYGRAPHICS
 70
     1
  9
$MEASUREMENT
 70
     1
  9
$CELWEIGHT
370
    -1
  9
$ENDCAPS
280
     0
  9
$JOINSTYLE
280
     0
  9
$LWDISPLAY
290
     1
  9
$INSUNITS
 70
     4
  9
$HYPERLINKBASE
  1

  9
$STYLESHEET
  1

  9
$XEDIT
290
     1
  9
$CEPSNTYPE
380
     0
  9
$PSTYLEMODE
290
     1
  9
$FINGERPRINTGUID
  2
{6150F007-FC57-4126-A8DF-C2F59BB485AB}
  9
$VERSIONGUID
  2
{FAEB1C32-E019-11D5-929B-00C0DF256EC4}
  9
$EXTNAMES
290
     1
  9
$PSVPSCALE
 40
0.0
  9
$OLESTARTUP
290
     0
  0
ENDSEC
  0
SECTION
  2
CLASSES
  0
CLASS
  1
ACDBDICTIONARYWDFLT
  2
AcDbDictionaryWithDefault
  3
ObjectDBX Classes
 90
        0
280
     0
281
     0
  0
CLASS
  1
VISUALSTYLE
  2
AcDbVisualStyle
  3
ObjectDBX Classes
 90
     4095
280
     0
281
     0
  0
CLASS
  1
MATERIAL
  2
AcDbMaterial
  3
ObjectDBX Classes
 90
     1153
280
     0
281
     0
  0
CLASS
  1
SCALE
  2
AcDbScale
  3
ObjectDBX Classes
 90
     1153
280
     0
281
     0
  0
CLASS
  1
TABLESTYLE
  2
AcDbTableStyle
  3
ObjectDBX Classes
 90
     4095
280
     0
281
     0
  0
CLASS
  1
MLEADERSTYLE
  2
AcDbMLeaderStyle
  3
ACDB_MLEADERSTYLE_CLASS
 90
     4095
280
     0
281
     0
  0
CLASS
  1
SUN
  2
AcDbSun
  3
SCENEOE
 90
     1153
280
     0
281
     0
  0
CLASS
  1
ACDBPLACEHOLDER
  2
AcDbPlaceHolder
  3
ObjectDBX Classes
 90
        0
280
     0
281
     0
  0
CLASS
  1
LAYOUT
  2
AcDbLayout
  3
ObjectDBX Classes
 90
        0
280
     0
281
     0
  0
ENDSEC
  0
SECTION
  2
TABLES
  0
TABLE
  2
VPORT
  5
8
330
0
100
AcDbSymbolTable
 70
     1
  0
VPORT
  5
29
330
8
100
AcDbSymbolTableRecord
100
AcDbViewportTableRecord
  2
*Active
 70
     0
 10
0.0
 20
0.0
 11
1.0
 21
1.0
 12
210.0
 22
148.5
 13
0.0
 23
0.0
 14
10.0
 24
10.0
 15
10.0
 25
10.0
 16
0.0
 26
0.0
 36
1.0
 17
0.0
 27
0.0
 37
0.0
 40
297.0
 41
1.4141414141
 42
50.0
 43
0.0
 44
0.0
 50
0.0
 51
0.0
 71
     0
 72
  2000
 73
     1
 74
     3
 75
     0
 76
     0
 77
     0
 78
     0
281
     0
 65
     1
110
0.0
120
0.0
130
0.0
111
1.0
121
0.0
131
0.0
112
0.0
122
1.0
132
0.0
 79
     0
146
0.0
  0
ENDTAB
  0
TABLE
  2
LTYPE
  5
5
330
0
100
AcDbSymbolTable
 70
     6
  0
LTYPE
  5
14
330
5
100
AcDbSymbolTableRecord
100
AcDbLinetypeTableRecord
  2
ByBlock
 70
     0
  3

 72
    65
 73
     0
 40
0.0
  0
LTYPE
  5
15
330
5
100
AcDbSymbolTableRecord
100
AcDbLinetypeTableRecord
  2
ByLayer
 70
     0
  3

 72
    65
 73
     0
 40
0.0
  0
LTYPE
  5
16
330
5
100
AcDbSymbolTableRecord
100
AcDbLinetypeTableRecord
  2
Continuous
 70
     0
  3
Solid line
 72
    65
 73
     0
 40
0.0
  0
LTYPE
  5
6E
330
5
100
AcDbSymbolTableRecord
100
AcDbLinetypeTableRecord
  2
HIDDEN
 70
     0
  3
Hidden __ __ __ __ __ __ __ __ __ __ __ __ __ __
 72
    65
 73
     2
 40
1.905
 49
1.27
 74
     0
 49
-0.635
 74
     0
  0
LTYPE
  5
6F
330
5
100
AcDbSymbolTableRecord
100
AcDbLinetypeTableRecord
  2
PHANTOM
 70
     0
  3
Phantom ______  __  __  ______  __  __  ______
 72
    65
 73
     6
 40
12.7
 49
6.35
 74
     0
 49
-1.27
 74
     0
 49
1.27
 74
     0
 49
-1.27
 74
     0
 49
1.27
 74
     0
 49
-1.27
 74
     0
  0
LTYPE
  5
70
330
5
100
AcDbSymbolTableRecord
100
AcDbLinetypeTableRecord
  2
CENTER
 70
     0
  3
Center ____ _ ____ _ ____ _ ____ _ ____ _ ____
 72
    65
 73
     4
 40
10.16
 49
6.35
 74
     0
 49
-1.27
 74
     0
 49
1.27
 74
     0
 49
-1.27
 74
     0
  0
LTYPE
  5
71
330
5
100
AcDbSymbolTableRecord
100
AcDbLinetypeTableRecord
  2
CENTERX2
 70
     0
  3
Center (2x) ________  __  ________  __  _____
 72
    65
 73
     4
 40
20.32
 49
12.7
 74
     0
 49
-2.54
 74
     0
 49
2.54
 74
     0
 49
-2.54
 74
     0
  0
LTYPE
  5
72
330
5
100
AcDbSymbolTableRecord
100
AcDbLinetypeTableRecord
  2
DOT2
 70
     0
  3
Dot (.5x) ........................................
 72
    65
 73
     2
 40
0.635
 49
0.0
 74
     0
 49
-0.635
 74
     0
  0
ENDTAB
  0
TABLE
  2
LAYER
  5
2
330
0
100
AcDbSymbolTable
 70
     2
  0
LAYER
  5
10
330
2
100
AcDbSymbolTableRecord
100
AcDbLayerTableRecord
  2
0
 70
     0
 62
     7
  6
Continuous
370
    -3
390
F
  0
LAYER
  5
73
330
2
100
AcDbSymbolTableRecord
100
AcDbLayerTableRecord
  2
NOTES
 70
     0
 62
     7
  6
Continuous
370
    25
390
F
  0
ENDTAB
  0
TABLE
  2
STYLE
  5
3
330
0
100
AcDbSymbolTable
 70
     3
  0
STYLE
  5
11
330
3
100
AcDbSymbolTableRecord
100
AcDbTextStyleTableRecord
  2
Standard
 70
     0
 40
0.0
 41
1.0
 50
0.0
 71
     0
 42
3.5
  3
txt
  4

  0
STYLE
  5
F1
330
3
100
AcDbSymbolTableRecord
100
AcDbTextStyleTableRecord
  2
SLDTEXTSTYLE0
 70
     0
 40
0.0
 41
0.75
 50
0.0
 71
     0
 42
3.5
  3
TXT
  4

  0
STYLE
  5
F4
330
3
100
AcDbSymbolTableRecord
100
AcDbTextStyleTableRecord
  2
SLDTEXTSTYLE1
 70
     0
 40
0.0
 41
0.6918604651
 50
0.0
 71
     0
 42
3.5
  3
TXT
  4

  0
ENDTAB
  0
TABLE
  2
VIEW
  5
6
330
0
100
AcDbSymbolTable
 70
     0
  0
ENDTAB
  0
TABLE
  2
UCS
  5
7
330
0
100
AcDbSymbolTable
 70
     0
  0
ENDTAB
  0
TABLE
  2
APPID
  5
9
330
0
100
AcDbSymbolTable
 70
     1
  0
APPID
  5
12
330
9
100
AcDbSymbolTableRecord
100
AcDbRegAppTableRecord
  2
ACAD
 70
     0
  0
ENDTAB
  0
TABLE
  2
DIMSTYLE
  5
A
330
0
100
AcDbSymbolTable
 70
     1
100
AcDbDimStyleTable
  0
DIMSTYLE
105
27
330
A
100
AcDbSymbolTableRecord
100
AcDbDimStyleTableRecord
  2
ISO-25
 70
     0
 41
2.5
 42
0.625
 43
3.75
 44
1.25
 73
     0
 74
     0
 77
     1
 78
     8
140
2.5
141
2.5
143
0.0393700787
147
0.625
171
     3
172
     1
178
     0
271
     2
272
     2
274
     3
278
    44
283
     0
284
     8
340
11
  0
ENDTAB
  0
TABLE
  2
BLOCK_RECORD
  5
1
330
0
100
AcDbSymbolTable
 70
     2
  0
BLOCK_RECORD
  5
1F
330
1
100
AcDbSymbolTableRecord
100
AcDbBlockTableRecord
  2
*Model_Space
340
22
  0
BLOCK_RECORD
  5
1B
330
1
100
AcDbSymbolTableRecord
100
AcDbBlockTableRecord
  2
*Paper_Space
340
1E
  0
BLOCK_RECORD
  5
23
330
1
100
AcDbSymbolTableRecord
100
AcDbBlockTableRecord
  2
*Paper_Space0
340
26
  0
BLOCK_RECORD
  5
F6
330
1
100
AcDbSymbolTableRecord
100
AcDbBlockTableRecord
  2
SW_CENTERMARKSYMBOL_0
340
0
102
{BLKREFS
331
11D
102
}
  0
ENDTAB
  0
ENDSEC
  0
SECTION
  2
BLOCKS
  0
BLOCK
  5
20
330
1F
100
AcDbEntity
  8
0
100
AcDbBlockBegin
  2
*Model_Space
 70
     0
 10
0.0
 20
0.0
 30
0.0
  3
*Model_Space
  1

  0
ENDBLK
  5
21
330
1F
100
AcDbEntity
  8
0
100
AcDbBlockEnd
  0
BLOCK
  5
1C
330
1B
100
AcDbEntity
 67
     1
  8
0
100
AcDbBlockBegin
  2
*Paper_Space
 70
     0
 10
0.0
 20
0.0
 30
0.0
  3
*Paper_Space
  1

  0
ENDBLK
  5
1D
330
1B
100
AcDbEntity
 67
     1
  8
0
100
AcDbBlockEnd
  0
BLOCK
  5
24
330
23
100
AcDbEntity
  8
0
100
AcDbBlockBegin
  2
*Paper_Space0
 70
     0
 10
0.0
 20
0.0
 30
0.0
  3
*Paper_Space0
  1

  0
ENDBLK
  5
25
330
23
100
AcDbEntity
  8
0
100
AcDbBlockEnd
  0
BLOCK
  5
F7
330
F6
100
AcDbEntity
  8
0
100
AcDbBlockBegin
  2
SW_CENTERMARKSYMBOL_0
 70
     0
 10
0.0
 20
0.0
 30
0.0
  3
SW_CENTERMARKSYMBOL_0
  1

  0
ARC
  5
F9
330
F6
100
AcDbEntity
  8
NOTES
 62
     0
100
AcDbCircle
 10
-15.25
 20
0.0
 30
0.0
 40
15.25
100
AcDbArc
 50
0.0
 51
9.3927507398
  0
ARC
  5
FA
330
F6
100
AcDbEntity
  8
NOTES
 62
     0
100
AcDbCircle
 10
-15.25
 20
0.0
 30
0.0
 40
15.25
100
AcDbArc
 50
350.6072492602
 51
0.0
  0
ARC
  5
FB
330
F6
100
AcDbEntity
  8
NOTES
 62
     0
100
AcDbCircle
 10
-15.25
 20
0.0
 30
0.0
 40
15.25000000000002
100
AcDbArc
 50
90.0
 51
99.3927507398
  0
ARC
  5
FC
330
F6
100
AcDbEntity
  8
NOTES
 62
     0
100
AcDbCircle
 10
-15.25
 20
0.0
 30
0.0
 40
15.25000000000002
100
AcDbArc
 50
80.6072492602
 51
90.0
  0
ARC
  5
FD
330
F6
100
AcDbEntity
  8
NOTES
 62
     0
100
AcDbCircle
 10
-15.25
 20
0.0
 30
0.0
 40
15.25000000000002
100
AcDbArc
 50
270.0
 51
279.3927507398
  0
ARC
  5
FE
330
F6
100
AcDbEntity
  8
NOTES
 62
     0
100
AcDbCircle
 10
-15.25
 20
0.0
 30
0.0
 40
15.25000000000002
100
AcDbArc
 50
260.6072492602
 51
270.0
  0
ARC
  5
FF
330
F6
100
AcDbEntity
  8
NOTES
 62
     0
100
AcDbCircle
 10
-15.25
 20
0.0
 30
0.0
 40
15.25000000000004
100
AcDbArc
 50
180.0
 51
189.3927507398
  0
ARC
  5
100
330
F6
100
AcDbEntity
  8
NOTES
 62
     0
100
AcDbCircle
 10
-15.25
 20
0.0
 30
0.0
 40
15.25000000000004
100
AcDbArc
 50
170.6072492601
 51
180.0
  0
ARC
  5
101
330
F6
100
AcDbEntity
  8
NOTES
 62
     0
100
AcDbCircle
 10
-15.25
 20
0.0
 30
0.0
 40
15.25000000000004
100
AcDbArc
 50
108.7855014797
 51
161.2144985203
  0
ARC
  5
102
330
F6
100
AcDbEntity
  8
NOTES
 62
     0
100
AcDbCircle
 10
-15.25
 20
0.0
 30
0.0
 40
15.25000000000004
100
AcDbArc
 50
198.7855014797
 51
251.2144985203
  0
ARC
  5
103
330
F6
100
AcDbEntity
  8
NOTES
 62
     0
100
AcDbCircle
 10
-15.25
 20
0.0
 30
0.0
 40
15.25000000000002
100
AcDbArc
 50
288.7855014797
 51
341.2144985203
  0
ARC
  5
104
330
F6
100
AcDbEntity
  8
NOTES
 62
     0
100
AcDbCircle
 10
-15.25
 20
0.0
 30
0.0
 40
15.25000000000001
100
AcDbArc
 50
18.7855014797
 51
71.2144985203
  0
LINE
  5
105
330
F6
100
AcDbEntity
  8
NOTES
 62
     0
100
AcDbLine
 10
0.0
 20
0.0
 30
0.0
 11
2.5
 21
0.0
 31
0.0
  0
LINE
  5
106
330
F6
100
AcDbEntity
  8
NOTES
 62
     0
100
AcDbLine
 10
0.0
 20
0.0
 30
0.0
 11
-2.5
 21
0.0
 31
0.0
  0
LINE
  5
107
330
F6
100
AcDbEntity
  8
NOTES
 62
     0
100
AcDbLine
 10
5.0
 20
0.0
 30
0.0
 11
6.5
 21
0.0
 31
0.0
  0
LINE
  5
108
330
F6
100
AcDbEntity
  8
NOTES
 62
     0
100
AcDbLine
 10
-5.0
 20
0.0
 30
0.0
 11
-6.5
 21
0.0
 31
0.0
  0
LINE
  5
109
330
F6
100
AcDbEntity
  8
NOTES
 62
     0
100
AcDbLine
 10
-15.25
 20
0.0
 30
0.0
 11
-15.25
 21
2.5
 31
0.0
  0
LINE
  5
10A
330
F6
100
AcDbEntity
  8
NOTES
 62
     0
100
AcDbLine
 10
-15.25
 20
0.0
 30
0.0
 11
-17.75
 21
0.0
 31
0.0
  0
LINE
  5
10B
330
F6
100
AcDbEntity
  8
NOTES
 62
     0
100
AcDbLine
 10
-15.25
 20
0.0
 30
0.0
 11
-15.25
 21
-2.5
 31
0.0
  0
LINE
  5
10C
330
F6
100
AcDbEntity
  8
NOTES
 62
     0
100
AcDbLine
 10
-15.25
 20
0.0
 30
0.0
 11
-12.75
 21
0.0
 31
0.0
  0
LINE
  5
10D
330
F6
100
AcDbEntity
  8
NOTES
 62
     0
100
AcDbLine
 10
-15.25
 20
5.0
 30
0.0
 11
-15.25
 21
17.75
 31
0.0
  0
LINE
  5
10E
330
F6
100
AcDbEntity
  8
NOTES
 62
     0
100
AcDbLine
 10
-20.25
 20
0.0
 30
0.0
 11
-33.0
 21
0.0
 31
0.0
  0
LINE
  5
10F
330
F6
100
AcDbEntity
  8
NOTES
 62
     0
100
AcDbLine
 10
-15.25
 20
-5.0
 30
0.0
 11
-15.25
 21
-17.75
 31
0.0
  0
LINE
  5
110
330
F6
100
AcDbEntity
  8
NOTES
 62
     0
100
AcDbLine
 10
-10.25
 20
0.0
 30
0.0
 11
2.5
 21
0.0
 31
0.0
  0
LINE
  5
111
330
F6
100
AcDbEntity
  8
NOTES
 62
     0
100
AcDbLine
 10
-15.25
 20
15.25
 30
0.0
 11
-15.25
 21
17.75
 31
0.0
  0
LINE
  5
112
330
F6
100
AcDbEntity
  8
NOTES
 62
     0
100
AcDbLine
 10
-15.25
 20
15.25
 30
0.0
 11
-15.25
 21
12.75
 31
0.0
  0
LINE
  5
113
330
F6
100
AcDbEntity
  8
NOTES
 62
     0
100
AcDbLine
 10
-15.25
 20
20.25
 30
0.0
 11
-15.25
 21
21.75
 31
0.0
  0
LINE
  5
114
330
F6
100
AcDbEntity
  8
NOTES
 62
     0
100
AcDbLine
 10
-15.25
 20
10.25
 30
0.0
 11
-15.25
 21
8.75
 31
0.0
  0
LINE
  5
115
330
F6
100
AcDbEntity
  8
NOTES
 62
     0
100
AcDbLine
 10
-15.25
 20
-15.25
 30
0.0
 11
-15.25
 21
-17.75
 31
0.0
  0
LINE
  5
116
330
F6
100
AcDbEntity
  8
NOTES
 62
     0
100
AcDbLine
 10
-15.25
 20
-15.25
 30
0.0
 11
-15.25
 21
-12.75
 31
0.0
  0
LINE
  5
117
330
F6
100
AcDbEntity
  8
NOTES
 62
     0
100
AcDbLine
 10
-15.25
 20
-20.25
 30
0.0
 11
-15.25
 21
-21.75
 31
0.0
  0
LINE
  5
118
330
F6
100
AcDbEntity
  8
NOTES
 62
     0
100
AcDbLine
 10
-15.25
 20
-10.25
 30
0.0
 11
-15.25
 21
-8.75
 31
0.0
  0
LINE
  5
119
330
F6
100
AcDbEntity
  8
NOTES
 62
     0
100
AcDbLine
 10
-30.5
 20
0.0
 30
0.0
 11
-33.0
 21
0.0
 31
0.0
  0
LINE
  5
11A
330
F6
100
AcDbEntity
  8
NOTES
 62
     0
100
AcDbLine
 10
-30.5
 20
0.0
 30
0.0
 11
-28.0
 21
0.0
 31
0.0
  0
LINE
  5
11B
330
F6
100
AcDbEntity
  8
NOTES
 62
     0
100
AcDbLine
 10
-35.5
 20
0.0
 30
0.0
 11
-37.0
 21
0.0
 31
0.0
  0
LINE
  5
11C
330
F6
100
AcDbEntity
  8
NOTES
 62
     0
100
AcDbLine
 10
-25.5
 20
0.0
 30
0.0
 11
-24.0
 21
0.0
 31
0.0
  0
ENDBLK
  5
F8
330
F6
100
AcDbEntity
  8
0
100
AcDbBlockEnd
  0
ENDSEC
  0
SECTION
  2
ENTITIES
  0
ARC
  5
74
330
1F
100
AcDbEntity
  8
0
  6
Continuous
 62
     7
370
    25
100
AcDbCircle
 10
73.4192576519
 20
82.3995137729
 30
0.0
 40
8.445000000000068
100
AcDbArc
 50
315.0
 51
324.0
  0
ARC
  5
75
330
1F
100
AcDbEntity
  8
0
  6
Continuous
 62
     7
370
    25
100
AcDbCircle
 10
82.3995137729
 20
73.4192576519
 30
0.0
 40
4.254999999999993
100
AcDbArc
 50
135.0
 51
297.0
  0
ARC
  5
76
330
1F
100
AcDbEntity
  8
0
  6
Continuous
 62
     7
370
    25
100
AcDbCircle
 10
88.1651931196
 20
62.1034747947
 30
0.0
 40
8.445000000000054
100
AcDbArc
 50
108.0
 51
117.0
  0
ARC
  5
77
330
1F
100
AcDbEntity
  8
0
  6
Continuous
 62
     7
370
    25
100
AcDbCircle
 10
90.1519108256
 20
49.5598328691
 30
0.0
 40
21.08246041435114
100
AcDbArc
 50
95.2473571748
 51
102.5926760948
  0
ARC
  5
78
330
1F
100
AcDbEntity
  8
0
  6
Continuous
 62
     7
370
    25
100
AcDbCircle
 10
49.5598328691
 20
49.5598328691
 30
0.0
 40
43.99607795652288
100
AcDbArc
 50
25.4985286255
 51
28.5014713745
  0
ARC
  5
79
330
1F
100
AcDbEntity
  8
0
  6
Continuous
 62
     7
370
    25
100
AcDbCircle
 10
73.4192576519
 20
82.3995137729
 30
0.0
 40
21.08246041435113
100
AcDbArc
 50
311.4073239052
 51
318.7526428252
  0
ARC
  5
7A
330
1F
100
AcDbEntity
  8
0
  6
Continuous
 62
     7
370
    25
100
AcDbCircle
 10
82.3995137729
 20
73.4192576519
 30
0.0
 40
8.44500000000005
100
AcDbArc
 50
297.0
 51
306.0
  0
ARC
  5
7B
330
1F
100
AcDbEntity
  8
0
  6
Continuous
 62
     7
370
    25
100
AcDbCircle
 10
88.1651931196
 20
62.1034747947
 30
0.0
 40
4.255000000000003
100
AcDbArc
 50
117.0
 51
279.0
  0
ARC
  5
7C
330
1F
100
AcDbEntity
  8
0
  6
Continuous
 62
     7
370
    25
100
AcDbCircle
 10
90.1519108256
 20
49.5598328691
 30
0.0
 40
8.445000000000059
100
AcDbArc
 50
90.0
 51
99.0
  0
ARC
  5
7D
330
1F
100
AcDbEntity
  8
0
  6
Continuous
 62
     7
370
    25
100
AcDbCircle
 10
88.1651931196
 20
37.0161909436
 30
0.0
 40
21.08246041435114
100
AcDbArc
 50
77.2473571748
 51
84.5926760948
  0
ARC
  5
7E
330
1F
100
AcDbEntity
  8
0
  6
Continuous
 62
     7
370
    25
100
AcDbCircle
 10
49.5598328691
 20
49.5598328691
 30
0.0
 40
43.99607795652288
100
AcDbArc
 50
7.4985286255
 51
10.5014713745
  0
ARC
  5
7F
330
1F
100
AcDbEntity
  8
0
  6
Continuous
 62
     7
370
    25
100
AcDbCircle
 10
82.3995137729
 20
73.4192576519
 30
0.0
 40
21.08246041435113
100
AcDbArc
 50
293.4073239052
 51
300.7526428252
  0
ARC
  5
80
330
1F
100
AcDbEntity
  8
0
  6
Continuous
 62
     7
370
    25
100
AcDbCircle
 10
88.1651931196
 20
62.1034747947
 30
0.0
 40
8.445000000000055
100
AcDbArc
 50
279.0
 51
288.0
  0
ARC
  5
81
330
1F
100
AcDbEntity
  8
0
  6
Continuous
 62
     7
370
    25
100
AcDbCircle
 10
90.1519108256
 20
49.5598328691
 30
0.0
 40
4.254999999999999
100
AcDbArc
 50
99.0
 51
261.0
  0
ARC
  5
82
330
1F
100
AcDbEntity
  8
0
  6
Continuous
 62
     7
370
    25
100
AcDbCircle
 10
88.1651931196
 20
37.0161909436
 30
0.0
 40
8.44500000000006
100
AcDbArc
 50
72.0
 51
81.0
  0
ARC
  5
83
330
1F
100
AcDbEntity
  8
0
  6
Continuous
 62
     7
370
    25
100
AcDbCircle
 10
82.3995137729
 20
25.7004080864
 30
0.0
 40
21.08246041435115
100
AcDbArc
 50
59.2473571748
 51
66.5926760948
  0
ARC
  5
84
330
1F
100
AcDbEntity
  8
0
  6
Continuous
 62
     7
370
    25
100
AcDbCircle
 10
49.5598328691
 20
49.5598328691
 30
0.0
 40
43.99607795652288
100
AcDbArc
 50
349.4985286255
 51
352.5014713745
  0
ARC
  5
85
330
1F
100
AcDbEntity
  8
0
  6
Continuous
 62
     7
370
    25
100
AcDbCircle
 10
88.1651931196
 20
62.1034747947
 30
0.0
 40
21.08246041435114
100
AcDbArc
 50
275.4073239052
 51
282.7526428252
  0
ARC
  5
86
330
1F
100
AcDbEntity
  8
0
  6
Continuous
 62
     7
370
    25
100
AcDbCircle
 10
90.1519108256
 20
49.5598328691
 30
0.0
 40
8.445000000000066
100
AcDbArc
 50
261.0
 51
270.0
  0
ARC
  5
87
330
1F
100
AcDbEntity
  8
0
  6
Continuous
 62
     7
370
    25
100
AcDbCircle
 10
88.1651931196
 20
37.0161909436
 30
0.0
 40
4.255000000000003
100
AcDbArc
 50
81.0
 51
243.0
  0
ARC
  5
88
330
1F
100
AcDbEntity
  8
0
  6
Continuous
 62
     7
370
    25
100
AcDbCircle
 10
82.3995137729
 20
25.7004080864
 30
0.0
 40
8.445000000000055
100
AcDbArc
 50
54.0
 51
63.0
  0
ARC
  5
89
330
1F
100
AcDbEntity
  8
0
  6
Continuous
 62
     7
370
    25
100
AcDbCircle
 10
73.4192576519
 20
16.7201519653
 30
0.0
 40
21.08246041435114
100
AcDbArc
 50
41.2473571748
 51
48.5926760948
  0
ARC
  5
8A
330
1F
100
AcDbEntity
  8
0
  6
Continuous
 62
     7
370
    25
100
AcDbCircle
 10
49.5598328691
 20
49.5598328691
 30
0.0
 40
43.99607795652287
100
AcDbArc
 50
331.4985286255
 51
334.5014713745
  0
ARC
  5
8B
330
1F
100
AcDbEntity
  8
0
  6
Continuous
 62
     7
370
    25
100
AcDbCircle
 10
90.1519108256
 20
49.5598328691
 30
0.0
 40
21.08246041435114
100
AcDbArc
 50
257.4073239052
 51
264.7526428252
  0
ARC
  5
8C
330
1F
100
AcDbEntity
  8
0
  6
Continuous
 62
     7
370
    25
100
AcDbCircle
 10
88.1651931196
 20
37.0161909436
 30
0.0
 40
8.445000000000059
100
AcDbArc
 50
243.0
 51
252.0
  0
ARC
  5
8D
330
1F
100
AcDbEntity
  8
0
  6
Continuous
 62
     7
370
    25
100
AcDbCircle
 10
82.3995137729
 20
25.7004080864
 30
0.0
 40
4.255
100
AcDbArc
 50
63.0
 51
225.0
  0
ARC
  5
8E
330
1F
100
AcDbEntity
  8
0
  6
Continuous
 62
     7
370
    25
100
AcDbCircle
 10
73.4192576519
 20
16.7201519653
 30
0.0
 40
8.445000000000057
100
AcDbArc
 50
36.0
 51
45.0
  0
ARC
  5
8F
330
1F
100
AcDbEntity
  8
0
  6
Continuous
 62
     7
370
    25
100
AcDbCircle
 10
62.1034747947
 20
10.9544726186
 30
0.0
 40
21.08246041435116
100
AcDbArc
 50
23.2473571748
 51
30.5926760948
  0
ARC
  5
90
330
1F
100
AcDbEntity
  8
0
  6
Continuous
 62
     7
370
    25
100
AcDbCircle
 10
49.5598328691
 20
49.5598328691
 30
0.0
 40
43.99607795652288
100
AcDbArc
 50
313.4985286255
 51
316.5014713745
  0
ARC
  5
91
330
1F
100
AcDbEntity
  8
0
  6
Continuous
 62
     7
370
    25
100
AcDbCircle
 10
88.1651931196
 20
37.0161909436
 30
0.0
 40
21.08246041435114
100
AcDbArc
 50
239.4073239052
 51
246.7526428252
  0
ARC
  5
92
330
1F
100
AcDbEntity
  8
0
  6
Continuous
 62
     7
370
    25
100
AcDbCircle
 10
82.3995137729
 20
25.7004080864
 30
0.0
 40
8.44500000000007
100
AcDbArc
 50
225.0
 51
234.0
  0
ARC
  5
93
330
1F
100
AcDbEntity
  8
0
  6
Continuous
 62
     7
370
    25
100
AcDbCircle
 10
73.4192576519
 20
16.7201519653
 30
0.0
 40
4.255000000000008
100
AcDbArc
 50
45.0
 51
207.0
  0
ARC
  5
94
330
1F
100
AcDbEntity
  8
0
  6
Continuous
 62
     7
370
    25
100
AcDbCircle
 10
62.1034747947
 20
10.9544726186
 30
0.0
 40
8.445000000000054
100
AcDbArc
 50
18.0
 51
27.0
  0
ARC
  5
95
330
1F
100
AcDbEntity
  8
0
  6
Continuous
 62
     7
370
    25
100
AcDbCircle
 10
49.5598328691
 20
8.9677549126
 30
0.0
 40
21.08246041435115
100
AcDbArc
 50
5.2473571748
 51
12.5926760948
  0
ARC
  5
96
330
1F
100
AcDbEntity
  8
0
  6
Continuous
 62
     7
370
    25
100
AcDbCircle
 10
49.5598328691
 20
49.5598328691
 30
0.0
 40
43.99607795652287
100
AcDbArc
 50
295.4985286255
 51
298.5014713745
  0
ARC
  5
97
330
1F
100
AcDbEntity
  8
0
  6
Continuous
 62
     7
370
    25
100
AcDbCircle
 10
82.3995137729
 20
25.7004080864
 30
0.0
 40
21.08246041435114
100
AcDbArc
 50
221.4073239052
 51
228.7526428252
  0
ARC
  5
98
330
1F
100
AcDbEntity
  8
0
  6
Continuous
 62
     7
370
    25
100
AcDbCircle
 10
73.4192576519
 20
16.7201519653
 30
0.0
 40
8.445000000000064
100
AcDbArc
 50
207.0
 51
216.0
  0
ARC
  5
99
330
1F
100
AcDbEntity
  8
0
  6
Continuous
 62
     7
370
    25
100
AcDbCircle
 10
62.1034747947
 20
10.9544726186
 30
0.0
 40
4.255000000000007
100
AcDbArc
 50
27.0
 51
189.0
  0
ARC
  5
9A
330
1F
100
AcDbEntity
  8
0
  6
Continuous
 62
     7
370
    25
100
AcDbCircle
 10
49.5598328691
 20
8.9677549126
 30
0.0
 40
8.44500000000006
100
AcDbArc
 50
0.0
 51
9.0
  0
ARC
  5
9B
330
1F
100
AcDbEntity
  8
0
  6
Continuous
 62
     7
370
    25
100
AcDbCircle
 10
37.0161909436
 20
10.9544726186
 30
0.0
 40
21.08246041435114
100
AcDbArc
 50
347.2473571748
 51
354.5926760948
  0
ARC
  5
9C
330
1F
100
AcDbEntity
  8
0
  6
Continuous
 62
     7
370
    25
100
AcDbCircle
 10
49.5598328691
 20
49.5598328691
 30
0.0
 40
43.99607795652287
100
AcDbArc
 50
277.4985286255
 51
280.5014713745
  0
ARC
  5
9D
330
1F
100
AcDbEntity
  8
0
  6
Continuous
 62
     7
370
    25
100
AcDbCircle
 10
73.4192576519
 20
16.7201519653
 30
0.0
 40
21.08246041435114
100
AcDbArc
 50
203.4073239052
 51
210.7526428252
  0
ARC
  5
9E
330
1F
100
AcDbEntity
  8
0
  6
Continuous
 62
     7
370
    25
100
AcDbCircle
 10
62.1034747947
 20
10.9544726186
 30
0.0
 40
8.445000000000052
100
AcDbArc
 50
189.0
 51
198.0
  0
ARC
  5
9F
330
1F
100
AcDbEntity
  8
0
  6
Continuous
 62
     7
370
    25
100
AcDbCircle
 10
49.5598328691
 20
8.9677549126
 30
0.0
 40
4.255000000000005
100
AcDbArc
 50
9.0
 51
171.0
  0
ARC
  5
A0
330
1F
100
AcDbEntity
  8
0
  6
Continuous
 62
     7
370
    25
100
AcDbCircle
 10
37.0161909436
 20
10.9544726186
 30
0.0
 40
8.445000000000057
100
AcDbArc
 50
342.0
 51
351.0
  0
ARC
  5
A1
330
1F
100
AcDbEntity
  8
0
  6
Continuous
 62
     7
370
    25
100
AcDbCircle
 10
25.7004080864
 20
16.7201519653
 30
0.0
 40
21.08246041435114
100
AcDbArc
 50
329.2473571748
 51
336.5926760948
  0
ARC
  5
A2
330
1F
100
AcDbEntity
  8
0
  6
Continuous
 62
     7
370
    25
100
AcDbCircle
 10
49.5598328691
 20
49.5598328691
 30
0.0
 40
43.99607795652287
100
AcDbArc
 50
259.4985286255
 51
262.5014713745
  0
ARC
  5
A3
330
1F
100
AcDbEntity
  8
0
  6
Continuous
 62
     7
370
    25
100
AcDbCircle
 10
62.1034747947
 20
10.9544726186
 30
0.0
 40
21.08246041435114
100
AcDbArc
 50
185.4073239052
 51
192.7526428252
  0
ARC
  5
A4
330
1F
100
AcDbEntity
  8
0
  6
Continuous
 62
     7
370
    25
100
AcDbCircle
 10
49.5598328691
 20
8.9677549126
 30
0.0
 40
8.445000000000057
100
AcDbArc
 50
171.0
 51
180.0
  0
ARC
  5
A5
330
1F
100
AcDbEntity
  8
0
  6
Continuous
 62
     7
370
    25
100
AcDbCircle
 10
37.0161909436
 20
10.9544726186
 30
0.0
 40
4.255000000000009
100
AcDbArc
 50
351.0
 51
153.0
  0
ARC
  5
A6
330
1F
100
AcDbEntity
  8
0
  6
Continuous
 62
     7
370
    25
100
AcDbCircle
 10
25.7004080864
 20
16.7201519653
 30
0.0
 40
8.44500000000006
100
AcDbArc
 50
324.0
 51
333.0
  0
ARC
  5
A7
330
1F
100
AcDbEntity
  8
0
  6
Continuous
 62
     7
370
    25
100
AcDbCircle
 10
16.7201519653
 20
25.7004080864
 30
0.0
 40
21.08246041435114
100
AcDbArc
 50
311.2473571748
 51
318.5926760948
  0
ARC
  5
A8
330
1F
100
AcDbEntity
  8
0
  6
Continuous
 62
     7
370
    25
100
AcDbCircle
 10
49.5598328691
 20
49.5598328691
 30
0.0
 40
43.99607795652287
100
AcDbArc
 50
241.4985286255
 51
244.5014713745
  0
ARC
  5
A9
330
1F
100
AcDbEntity
  8
0
  6
Continuous
 62
     7
370
    25
100
AcDbCircle
 10
49.5598328691
 20
8.9677549126
 30
0.0
 40
21.08246041435114
100
AcDbArc
 50
167.4073239052
 51
174.7526428252
  0
ARC
  5
AA
330
1F
100
AcDbEntity
  8
0
  6
Continuous
 62
     7
370
    25
100
AcDbCircle
 10
37.0161909436
 20
10.9544726186
 30
0.0
 40
8.44500000000006
100
AcDbArc
 50
153.0
 51
162.0
  0
ARC
  5
AB
330
1F
100
AcDbEntity
  8
0
  6
Continuous
 62
     7
370
    25
100
AcDbCircle
 10
25.7004080864
 20
16.7201519653
 30
0.0
 40
4.254999999999998
100
AcDbArc
 50
333.0
 51
135.0
  0
ARC
  5
AC
330
1F
100
AcDbEntity
  8
0
  6
Continuous
 62
     7
370
    25
100
AcDbCircle
 10
16.7201519653
 20
25.7004080864
 30
0.0
 40
8.445000000000052
100
AcDbArc
 50
306.0
 51
315.0
  0
ARC
  5
AD
330
1F
100
AcDbEntity
  8
0
  6
Continuous
 62
     7
370
    25
100
AcDbCircle
 10
10.9544726186
 20
37.0161909436
 30
0.0
 40
21.08246041435115
100
AcDbArc
 50
293.2473571748
 51
300.5926760948
  0
ARC
  5
AE
330
1F
100
AcDbEntity
  8
0
  6
Continuous
 62
     7
370
    25
100
AcDbCircle
 10
49.5598328691
 20
49.5598328691
 30
0.0
 40
43.99607795652287
100
AcDbArc
 50
223.4985286255
 51
226.5014713745
  0
ARC
  5
AF
330
1F
100
AcDbEntity
  8
0
  6
Continuous
 62
     7
370
    25
100
AcDbCircle
 10
37.0161909436
 20
10.9544726186
 30
0.0
 40
21.08246041435113
100
AcDbArc
 50
149.4073239052
 51
156.7526428252
  0
ARC
  5
B0
330
1F
100
AcDbEntity
  8
0
  6
Continuous
 62
     7
370
    25
100
AcDbCircle
 10
25.7004080864
 20
16.7201519653
 30
0.0
 40
8.445000000000059
100
AcDbArc
 50
135.0
 51
144.0
  0
ARC
  5
B1
330
1F
100
AcDbEntity
  8
0
  6
Continuous
 62
     7
370
    25
100
AcDbCircle
 10
16.7201519653
 20
25.7004080864
 30
0.0
 40
4.255000000000001
100
AcDbArc
 50
315.0
 51
117.0
  0
ARC
  5
B2
330
1F
100
AcDbEntity
  8
0
  6
Continuous
 62
     7
370
    25
100
AcDbCircle
 10
10.9544726186
 20
37.0161909436
 30
0.0
 40
8.445000000000057
100
AcDbArc
 50
288.0
 51
297.0
  0
ARC
  5
B3
330
1F
100
AcDbEntity
  8
0
  6
Continuous
 62
     7
370
    25
100
AcDbCircle
 10
8.9677549126
 20
49.5598328691
 30
0.0
 40
21.08246041435114
100
AcDbArc
 50
275.2473571748
 51
282.5926760948
  0
ARC
  5
B4
330
1F
100
AcDbEntity
  8
0
  6
Continuous
 62
     7
370
    25
100
AcDbCircle
 10
49.5598328691
 20
49.5598328691
 30
0.0
 40
43.99607795652287
100
AcDbArc
 50
205.4985286255
 51
208.5014713745
  0
ARC
  5
B5
330
1F
100
AcDbEntity
  8
0
  6
Continuous
 62
     7
370
    25
100
AcDbCircle
 10
25.7004080864
 20
16.7201519653
 30
0.0
 40
21.08246041435115
100
AcDbArc
 50
131.4073239052
 51
138.7526428252
  0
ARC
  5
B6
330
1F
100
AcDbEntity
  8
0
  6
Continuous
 62
     7
370
    25
100
AcDbCircle
 10
16.7201519653
 20
25.7004080864
 30
0.0
 40
8.445000000000068
100
AcDbArc
 50
117.0
 51
126.0
  0
ARC
  5
B7
330
1F
100
AcDbEntity
  8
0
  6
Continuous
 62
     7
370
    25
100
AcDbCircle
 10
10.9544726186
 20
37.0161909436
 30
0.0
 40
4.255000000000003
100
AcDbArc
 50
297.0
 51
99.0
  0
ARC
  5
B8
330
1F
100
AcDbEntity
  8
0
  6
Continuous
 62
     7
370
    25
100
AcDbCircle
 10
8.9677549126
 20
49.5598328691
 30
0.0
 40
8.445000000000057
100
AcDbArc
 50
270.0
 51
279.0
  0
ARC
  5
B9
330
1F
100
AcDbEntity
  8
0
  6
Continuous
 62
     7
370
    25
100
AcDbCircle
 10
10.9544726186
 20
62.1034747947
 30
0.0
 40
21.08246041435114
100
AcDbArc
 50
257.2473571748
 51
264.5926760948
  0
ARC
  5
BA
330
1F
100
AcDbEntity
  8
0
  6
Continuous
 62
     7
370
    25
100
AcDbCircle
 10
16.7201519653
 20
25.7004080864
 30
0.0
 40
21.08246041435114
100
AcDbArc
 50
113.4073239052
 51
120.7526428252
  0
ARC
  5
BB
330
1F
100
AcDbEntity
  8
0
  6
Continuous
 62
     7
370
    25
100
AcDbCircle
 10
10.9544726186
 20
37.0161909436
 30
0.0
 40
8.445000000000059
100
AcDbArc
 50
99.0
 51
108.0
  0
ARC
  5
BC
330
1F
100
AcDbEntity
  8
0
  6
Continuous
 62
     7
370
    25
100
AcDbCircle
 10
8.9677549126
 20
49.5598328691
 30
0.0
 40
4.255000000000008
100
AcDbArc
 50
279.0
 51
81.0
  0
ARC
  5
BD
330
1F
100
AcDbEntity
  8
0
  6
Continuous
 62
     7
370
    25
100
AcDbCircle
 10
10.9544726186
 20
62.1034747947
 30
0.0
 40
8.445000000000052
100
AcDbArc
 50
252.0
 51
261.0
  0
ARC
  5
BE
330
1F
100
AcDbEntity
  8
0
  6
Continuous
 62
     7
370
    25
100
AcDbCircle
 10
49.5598328691
 20
49.5598328691
 30
0.0
 40
43.99607795652287
100
AcDbArc
 50
169.4985286255
 51
172.5014713745
  0
ARC
  5
BF
330
1F
100
AcDbEntity
  8
0
  6
Continuous
 62
     7
370
    25
100
AcDbCircle
 10
10.9544726186
 20
37.0161909436
 30
0.0
 40
21.08246041435114
100
AcDbArc
 50
95.4073239052
 51
102.7526428252
  0
ARC
  5
C0
330
1F
100
AcDbEntity
  8
0
  6
Continuous
 62
     7
370
    25
100
AcDbCircle
 10
8.9677549126
 20
49.5598328691
 30
0.0
 40
8.445000000000057
100
AcDbArc
 50
81.0
 51
90.0
  0
ARC
  5
C1
330
1F
100
AcDbEntity
  8
0
  6
Continuous
 62
     7
370
    25
100
AcDbCircle
 10
10.9544726186
 20
62.1034747947
 30
0.0
 40
4.255000000000007
100
AcDbArc
 50
261.0
 51
63.0
  0
ARC
  5
C2
330
1F
100
AcDbEntity
  8
0
  6
Continuous
 62
     7
370
    25
100
AcDbCircle
 10
16.7201519653
 20
73.4192576519
 30
0.0
 40
8.445000000000062
100
AcDbArc
 50
234.0
 51
243.0
  0
ARC
  5
C3
330
1F
100
AcDbEntity
  8
0
  6
Continuous
 62
     7
370
    25
100
AcDbCircle
 10
25.7004080864
 20
82.3995137729
 30
0.0
 40
21.08246041435114
100
AcDbArc
 50
221.2473571748
 51
228.5926760948
  0
ARC
  5
C4
330
1F
100
AcDbEntity
  8
0
  6
Continuous
 62
     7
370
    25
100
AcDbCircle
 10
49.5598328691
 20
49.5598328691
 30
0.0
 40
43.99607795652288
100
AcDbArc
 50
151.4985286255
 51
154.5014713745
  0
ARC
  5
C5
330
1F
100
AcDbEntity
  8
0
  6
Continuous
 62
     7
370
    25
100
AcDbCircle
 10
8.9677549126
 20
49.5598328691
 30
0.0
 40
21.08246041435113
100
AcDbArc
 50
77.4073239052
 51
84.7526428252
  0
ARC
  5
C6
330
1F
100
AcDbEntity
  8
0
  6
Continuous
 62
     7
370
    25
100
AcDbCircle
 10
10.9544726186
 20
62.1034747947
 30
0.0
 40
8.445000000000055
100
AcDbArc
 50
63.0
 51
72.0
  0
ARC
  5
C7
330
1F
100
AcDbEntity
  8
0
  6
Continuous
 62
     7
370
    25
100
AcDbCircle
 10
16.7201519653
 20
73.4192576519
 30
0.0
 40
4.255000000000001
100
AcDbArc
 50
243.0
 51
45.0
  0
ARC
  5
C8
330
1F
100
AcDbEntity
  8
0
  6
Continuous
 62
     7
370
    25
100
AcDbCircle
 10
25.7004080864
 20
82.3995137729
 30
0.0
 40
8.445000000000054
100
AcDbArc
 50
216.0
 51
225.0
  0
ARC
  5
C9
330
1F
100
AcDbEntity
  8
0
  6
Continuous
 62
     7
370
    25
100
AcDbCircle
 10
37.0161909436
 20
88.1651931196
 30
0.0
 40
21.08246041435114
100
AcDbArc
 50
203.2473571748
 51
210.5926760948
  0
ARC
  5
CA
330
1F
100
AcDbEntity
  8
0
  6
Continuous
 62
     7
370
    25
100
AcDbCircle
 10
49.5598328691
 20
49.5598328691
 30
0.0
 40
43.99607795652287
100
AcDbArc
 50
133.4985286255
 51
136.5014713745
  0
ARC
  5
CB
330
1F
100
AcDbEntity
  8
0
  6
Continuous
 62
     7
370
    25
100
AcDbCircle
 10
10.9544726186
 20
62.1034747947
 30
0.0
 40
21.08246041435114
100
AcDbArc
 50
59.4073239052
 51
66.7526428252
  0
ARC
  5
CC
330
1F
100
AcDbEntity
  8
0
  6
Continuous
 62
     7
370
    25
100
AcDbCircle
 10
16.7201519653
 20
73.4192576519
 30
0.0
 40
8.445000000000059
100
AcDbArc
 50
45.0
 51
54.0
  0
ARC
  5
CD
330
1F
100
AcDbEntity
  8
0
  6
Continuous
 62
     7
370
    25
100
AcDbCircle
 10
25.7004080864
 20
82.3995137729
 30
0.0
 40
4.255
100
AcDbArc
 50
225.0
 51
27.0
  0
ARC
  5
CE
330
1F
100
AcDbEntity
  8
0
  6
Continuous
 62
     7
370
    25
100
AcDbCircle
 10
37.0161909436
 20
88.1651931196
 30
0.0
 40
8.44500000000006
100
AcDbArc
 50
198.0
 51
207.0
  0
ARC
  5
CF
330
1F
100
AcDbEntity
  8
0
  6
Continuous
 62
     7
370
    25
100
AcDbCircle
 10
49.5598328691
 20
90.1519108256
 30
0.0
 40
21.08246041435114
100
AcDbArc
 50
185.2473571748
 51
192.5926760948
  0
ARC
  5
D0
330
1F
100
AcDbEntity
  8
0
  6
Continuous
 62
     7
370
    25
100
AcDbCircle
 10
49.5598328691
 20
49.5598328691
 30
0.0
 40
43.99607795652289
100
AcDbArc
 50
115.4985286255
 51
118.5014713745
  0
ARC
  5
D1
330
1F
100
AcDbEntity
  8
0
  6
Continuous
 62
     7
370
    25
100
AcDbCircle
 10
16.7201519653
 20
73.4192576519
 30
0.0
 40
21.08246041435114
100
AcDbArc
 50
41.4073239052
 51
48.7526428252
  0
ARC
  5
D2
330
1F
100
AcDbEntity
  8
0
  6
Continuous
 62
     7
370
    25
100
AcDbCircle
 10
25.7004080864
 20
82.3995137729
 30
0.0
 40
8.44500000000006
100
AcDbArc
 50
27.0
 51
36.0
  0
ARC
  5
D3
330
1F
100
AcDbEntity
  8
0
  6
Continuous
 62
     7
370
    25
100
AcDbCircle
 10
37.0161909436
 20
88.1651931196
 30
0.0
 40
4.255000000000008
100
AcDbArc
 50
207.0
 51
9.0
  0
ARC
  5
D4
330
1F
100
AcDbEntity
  8
0
  6
Continuous
 62
     7
370
    25
100
AcDbCircle
 10
49.5598328691
 20
90.1519108256
 30
0.0
 40
8.445000000000057
100
AcDbArc
 50
180.0
 51
189.0
  0
ARC
  5
D5
330
1F
100
AcDbEntity
  8
0
  6
Continuous
 62
     7
370
    25
100
AcDbCircle
 10
62.1034747947
 20
88.1651931196
 30
0.0
 40
21.08246041435114
100
AcDbArc
 50
167.2473571748
 51
174.5926760948
  0
ARC
  5
D6
330
1F
100
AcDbEntity
  8
0
  6
Continuous
 62
     7
370
    25
100
AcDbCircle
 10
49.5598328691
 20
49.5598328691
 30
0.0
 40
43.99607795652288
100
AcDbArc
 50
97.4985286255
 51
100.5014713745
  0
ARC
  5
D7
330
1F
100
AcDbEntity
  8
0
  6
Continuous
 62
     7
370
    25
100
AcDbCircle
 10
25.7004080864
 20
82.3995137729
 30
0.0
 40
21.08246041435114
100
AcDbArc
 50
23.4073239052
 51
30.7526428252
  0
ARC
  5
D8
330
1F
100
AcDbEntity
  8
0
  6
Continuous
 62
     7
370
    25
100
AcDbCircle
 10
37.0161909436
 20
88.1651931196
 30
0.0
 40
8.445000000000057
100
AcDbArc
 50
9.0
 51
18.0
  0
ARC
  5
D9
330
1F
100
AcDbEntity
  8
0
  6
Continuous
 62
     7
370
    25
100
AcDbCircle
 10
49.5598328691
 20
90.1519108256
 30
0.0
 40
4.255000000000008
100
AcDbArc
 50
189.0
 51
351.0
  0
ARC
  5
DA
330
1F
100
AcDbEntity
  8
0
  6
Continuous
 62
     7
370
    25
100
AcDbCircle
 10
62.1034747947
 20
88.1651931196
 30
0.0
 40
8.44500000000005
100
AcDbArc
 50
162.0
 51
171.0
  0
ARC
  5
DB
330
1F
100
AcDbEntity
  8
0
  6
Continuous
 62
     7
370
    25
100
AcDbCircle
 10
73.4192576519
 20
82.3995137729
 30
0.0
 40
21.08246041435114
100
AcDbArc
 50
149.2473571748
 51
156.5926760948
  0
ARC
  5
DC
330
1F
100
AcDbEntity
  8
0
  6
Continuous
 62
     7
370
    25
100
AcDbCircle
 10
49.5598328691
 20
49.5598328691
 30
0.0
 40
43.99607795652288
100
AcDbArc
 50
79.4985286255
 51
82.5014713745
  0
ARC
  5
DD
330
1F
100
AcDbEntity
  8
0
  6
Continuous
 62
     7
370
    25
100
AcDbCircle
 10
37.0161909436
 20
88.1651931196
 30
0.0
 40
21.08246041435114
100
AcDbArc
 50
5.4073239052
 51
12.7526428252
  0
ARC
  5
DE
330
1F
100
AcDbEntity
  8
0
  6
Continuous
 62
     7
370
    25
100
AcDbCircle
 10
49.5598328691
 20
90.1519108256
 30
0.0
 40
8.445000000000059
100
AcDbArc
 50
351.0
 51
0.0
  0
ARC
  5
DF
330
1F
100
AcDbEntity
  8
0
  6
Continuous
 62
     7
370
    25
100
AcDbCircle
 10
62.1034747947
 20
88.1651931196
 30
0.0
 40
4.254999999999999
100
AcDbArc
 50
171.0
 51
333.0
  0
ARC
  5
E0
330
1F
100
AcDbEntity
  8
0
  6
Continuous
 62
     7
370
    25
100
AcDbCircle
 10
73.4192576519
 20
82.3995137729
 30
0.0
 40
8.445000000000059
100
AcDbArc
 50
144.0
 51
153.0
  0
ARC
  5
E1
330
1F
100
AcDbEntity
  8
0
  6
Continuous
 62
     7
370
    25
100
AcDbCircle
 10
82.3995137729
 20
73.4192576519
 30
0.0
 40
21.08246041435114
100
AcDbArc
 50
131.2473571748
 51
138.5926760948
  0
ARC
  5
E2
330
1F
100
AcDbEntity
  8
0
  6
Continuous
 62
     7
370
    25
100
AcDbCircle
 10
49.5598328691
 20
49.5598328691
 30
0.0
 40
43.99607795652287
100
AcDbArc
 50
61.4985286255
 51
64.5014713745
  0
ARC
  5
E3
330
1F
100
AcDbEntity
  8
0
  6
Continuous
 62
     7
370
    25
100
AcDbCircle
 10
49.5598328691
 20
90.1519108256
 30
0.0
 40
21.08246041435114
100
AcDbArc
 50
347.4073239052
 51
354.7526428252
  0
ARC
  5
E4
330
1F
100
AcDbEntity
  8
0
  6
Continuous
 62
     7
370
    25
100
AcDbCircle
 10
62.1034747947
 20
88.1651931196
 30
0.0
 40
8.445000000000066
100
AcDbArc
 50
333.0
 51
342.0
  0
ARC
  5
E5
330
1F
100
AcDbEntity
  8
0
  6
Continuous
 62
     7
370
    25
100
AcDbCircle
 10
73.4192576519
 20
82.3995137729
 30
0.0
 40
4.255000000000013
100
AcDbArc
 50
153.0
 51
315.0
  0
ARC
  5
E6
330
1F
100
AcDbEntity
  8
0
  6
Continuous
 62
     7
370
    25
100
AcDbCircle
 10
82.3995137729
 20
73.4192576519
 30
0.0
 40
8.445000000000052
100
AcDbArc
 50
126.0
 51
135.0
  0
ARC
  5
E7
330
1F
100
AcDbEntity
  8
0
  6
Continuous
 62
     7
370
    25
100
AcDbCircle
 10
88.1651931196
 20
62.1034747947
 30
0.0
 40
21.08246041435114
100
AcDbArc
 50
113.2473571748
 51
120.5926760948
  0
ARC
  5
E8
330
1F
100
AcDbEntity
  8
0
  6
Continuous
 62
     7
370
    25
100
AcDbCircle
 10
49.5598328691
 20
49.5598328691
 30
0.0
 40
43.99607795652288
100
AcDbArc
 50
43.4985286255
 51
46.5014713745
  0
ARC
  5
E9
330
1F
100
AcDbEntity
  8
0
  6
Continuous
 62
     7
370
    25
100
AcDbCircle
 10
62.1034747947
 20
88.1651931196
 30
0.0
 40
21.08246041435115
100
AcDbArc
 50
329.4073239052
 51
336.7526428252
  0
CIRCLE
  5
EA
330
1F
100
AcDbEntity
  8
0
  6
Continuous
 62
     7
370
    25
100
AcDbCircle
 10
49.5598328691
 20
49.5598328691
 30
0.0
 40
5.499999999999993
  0
CIRCLE
  5
EB
330
1F
100
AcDbEntity
  8
0
  6
Continuous
 62
     7
370
    25
100
AcDbCircle
 10
49.5598328691
 20
64.8098328691
 30
0.0
 40
4.000000000000007
  0
CIRCLE
  5
EC
330
1F
100
AcDbEntity
  8
0
  6
Continuous
 62
     7
370
    25
100
AcDbCircle
 10
34.3098328691
 20
49.5598328691
 30
0.0
 40
3.999999999999993
  0
CIRCLE
  5
ED
330
1F
100
AcDbEntity
  8
0
  6
Continuous
 62
     7
370
    25
100
AcDbCircle
 10
49.5598328691
 20
34.3098328691
 30
0.0
 40
4.0
  0
CIRCLE
  5
EE
330
1F
100
AcDbEntity
  8
0
  6
Continuous
 62
     7
370
    25
100
AcDbCircle
 10
64.8098328691
 20
49.5598328691
 30
0.0
 40
3.999999999999993
  0
ARC
  5
EF
330
1F
100
AcDbEntity
  8
0
  6
Continuous
 62
     7
370
    25
100
AcDbCircle
 10
16.7201519653
 20
73.4192576519
 30
0.0
 40
21.08246041435114
100
AcDbArc
 50
239.2473571748
 51
246.5926760948
  0
ARC
  5
F0
330
1F
100
AcDbEntity
  8
0
  6
Continuous
 62
     7
370
    25
100
AcDbCircle
 10
49.5598328691
 20
49.5598328691
 30
0.0
 40
43.99607795652287
100
AcDbArc
 50
187.4985286255
 51
190.5014713745
  0
MTEXT
  5
F2
330
1F
100
AcDbEntity
  8
NOTES
100
AcDbMText
 10
1.0
 20
-10.0139574413
 30
0.0
 40
3.5
 41
0.0
 71
     1
 72
     1
  1
Epaisseur:  6
  7
SLDTEXTSTYLE0
 73
     1
 44
1.0
  0
MTEXT
  5
F3
330
1F
100
AcDbEntity
  8
NOTES
100
AcDbMText
 10
1.0
 20
-20.0139574413
 30
0.0
 40
3.5
 41
0.0
 71
     1
 72
     1
  1
Matériau:  Acier non allié
  7
SLDTEXTSTYLE0
 73
     1
 44
1.0
  0
MTEXT
  5
F5
330
1F
100
AcDbEntity
  8
NOTES
100
AcDbMText
 10
1.0
 20
-30.0139574413
 30
0.0
 40
3.5
 41
0.0
 71
     1
 72
     1
  1
Description:  Pignon 08 B-1 - 20 - alésage Ø11 + 4xØ8 - 20 dents - Øalésage 11  - 4xØ8
  7
SLDTEXTSTYLE1
 73
     1
 44
1.0
  0
INSERT
  5
11D
330
1F
100
AcDbEntity
  8
NOTES
100
AcDbBlockReference
  2
SW_CENTERMARKSYMBOL_0
 10
64.8098328691
 20
49.5598328691
 30
0.0
  0
ENDSEC
  0
SECTION
  2
OBJECTS
  0
DICTIONARY
  5
C
330
0
100
AcDbDictionary
281
     1
  3
ACAD_GROUP
350
D
  3
ACAD_LAYOUT
350
1A
  3
ACAD_MLINESTYLE
350
17
  3
ACAD_PLOTSETTINGS
350
19
  3
ACAD_PLOTSTYLENAME
350
E
  3
ACAD_SCALELIST
350
47
  0
DICTIONARY
  5
D
102
{ACAD_REACTORS
330
C
102
}
330
C
100
AcDbDictionary
281
     1
  0
DICTIONARY
  5
1A
102
{ACAD_REACTORS
330
C
102
}
330
C
100
AcDbDictionary
281
     1
  3
Layout1
350
1E
  3
Layout2
350
26
  3
Model
350
22
  0
DICTIONARY
  5
17
102
{ACAD_REACTORS
330
C
102
}
330
C
100
AcDbDictionary
281
     1
  3
Standard
350
18
  0
DICTIONARY
  5
19
102
{ACAD_REACTORS
330
C
102
}
330
C
100
AcDbDictionary
281
     1
  0
ACDBDICTIONARYWDFLT
  5
E
102
{ACAD_REACTORS
330
C
102
}
330
C
100
AcDbDictionary
281
     1
  3
Normal
350
F
100
AcDbDictionaryWithDefault
340
F
  0
DICTIONARY
  5
47
102
{ACAD_REACTORS
330
C
102
}
330
C
100
AcDbDictionary
281
     1
  3
A0
350
48
  3
A1
350
49
  3
A2
350
4A
  3
A3
350
4B
  3
A4
350
4C
  3
A5
350
4D
  3
A6
350
4E
  3
A7
350
4F
  3
A8
350
50
  3
A9
350
51
  3
B0
350
52
  3
B1
350
53
  3
B2
350
54
  3
B3
350
55
  3
B4
350
56
  3
B5
350
57
  3
B6
350
58
  3
B7
350
59
  3
B8
350
5A
  3
B9
350
5B
  3
C0
350
5C
  3
C1
350
5D
  3
C2
350
5E
  3
C3
350
5F
  3
C4
350
60
  3
C5
350
61
  3
C6
350
62
  3
C7
350
63
  3
C8
350
64
  3
C9
350
65
  3
D0
350
66
  3
D1
350
67
  3
D2
350
68
  0
LAYOUT
  5
1E
102
{ACAD_REACTORS
330
1A
102
}
330
1A
100
AcDbPlotSettings
  1

  2
none_device
  4

  6

 40
0.0
 41
0.0
 42
0.0
 43
0.0
 44
0.0
 45
0.0
 46
0.0
 47
0.0
 48
0.0
 49
0.0
140
0.0
141
0.0
142
1.0
143
1.0
 70
   688
 72
     1
 73
     0
 74
     5
  7

 75
    16
147
1.0
148
0.0
149
0.0
100
AcDbLayout
  1
Layout1
 70
     1
 71
     1
 10
0.0
 20
0.0
 11
420.0
 21
297.0
 12
0.0
 22
0.0
 32
0.0
 14
1.0000000000E+20
 24
1.0000000000E+20
 34
1.0000000000E+20
 15
-1.0000000000E+20
 25
-1.0000000000E+20
 35
-1.0000000000E+20
146
0.0
 13
0.0
 23
0.0
 33
0.0
 16
1.0
 26
0.0
 36
0.0
 17
0.0
 27
1.0
 37
0.0
 76
     0
330
1B
  0
LAYOUT
  5
26
102
{ACAD_REACTORS
330
1A
102
}
330
1A
100
AcDbPlotSettings
  1

  2
none_device
  4

  6

 40
0.0
 41
0.0
 42
0.0
 43
0.0
 44
0.0
 45
0.0
 46
0.0
 47
0.0
 48
0.0
 49
0.0
140
0.0
141
0.0
142
1.0
143
1.0
 70
   688
 72
     1
 73
     0
 74
     5
  7

 75
    16
147
1.0
148
0.0
149
0.0
100
AcDbLayout
  1
Layout2
 70
     1
 71
     2
 10
0.0
 20
0.0
 11
0.0
 21
0.0
 12
0.0
 22
0.0
 32
0.0
 14
0.0
 24
0.0
 34
0.0
 15
0.0
 25
0.0
 35
0.0
146
0.0
 13
0.0
 23
0.0
 33
0.0
 16
1.0
 26
0.0
 36
0.0
 17
0.0
 27
1.0
 37
0.0
 76
     0
330
23
  0
LAYOUT
  5
22
102
{ACAD_REACTORS
330
1A
102
}
330
1A
100
AcDbPlotSettings
  1

  2
none_device
  4
Letter_(8.50_x_11.00_Inches)
  6

 40
6.35
 41
6.35
 42
6.35000508
 43
6.35000508
 44
215.9
 45
279.4
 46
0.0
 47
0.0
 48
0.0
 49
0.0
140
0.0
141
0.0
142
1.0
143
1.0
 70
  1712
 72
     1
 73
     0
 74
     0
  7

 75
     0
147
1.0
148
0.0
149
0.0
100
AcDbLayout
  1
Model
 70
     1
 71
     0
 10
0.0
 20
0.0
 11
420.0
 21
297.0
 12
0.0
 22
0.0
 32
0.0
 14
0.0
 24
0.0
 34
0.0
 15
420.0
 25
297.0
 35
0.0
146
0.0
 13
0.0
 23
0.0
 33
0.0
 16
1.0
 26
0.0
 36
0.0
 17
0.0
 27
1.0
 37
0.0
 76
     0
330
1F
331
29
  0
MLINESTYLE
  5
18
102
{ACAD_REACTORS
330
17
102
}
330
17
100
AcDbMlineStyle
  2
Standard
 70
     0
  3

 62
   256
 51
90.0
 52
90.0
 71
     2
 49
0.5
 62
   256
  6
BYLAYER
 49
-0.5
 62
   256
  6
BYLAYER
  0
ACDBPLACEHOLDER
  5
F
102
{ACAD_REACTORS
330
E
102
}
330
E
  0
SCALE
  5
48
102
{ACAD_REACTORS
330
47
102
}
330
47
100
AcDbScale
 70
     0
300
1:1
140
1.0
141
1.0
290
     1
  0
SCALE
  5
49
102
{ACAD_REACTORS
330
47
102
}
330
47
100
AcDbScale
 70
     0
300
1:2
140
1.0
141
2.0
290
     0
  0
SCALE
  5
4A
102
{ACAD_REACTORS
330
47
102
}
330
47
100
AcDbScale
 70
     0
300
1:4
140
1.0
141
4.0
290
     0
  0
SCALE
  5
4B
102
{ACAD_REACTORS
330
47
102
}
330
47
100
AcDbScale
 70
     0
300
1:5
140
1.0
141
5.0
290
     0
  0
SCALE
  5
4C
102
{ACAD_REACTORS
330
47
102
}
330
47
100
AcDbScale
 70
     0
300
1:8
140
1.0
141
8.0
290
     0
  0
SCALE
  5
4D
102
{ACAD_REACTORS
330
47
102
}
330
47
100
AcDbScale
 70
     0
300
1:10
140
1.0
141
10.0
290
     0
  0
SCALE
  5
4E
102
{ACAD_REACTORS
330
47
102
}
330
47
100
AcDbScale
 70
     0
300
1:16
140
1.0
141
16.0
290
     0
  0
SCALE
  5
4F
102
{ACAD_REACTORS
330
47
102
}
330
47
100
AcDbScale
 70
     0
300
1:20
140
1.0
141
20.0
290
     0
  0
SCALE
  5
50
102
{ACAD_REACTORS
330
47
102
}
330
47
100
AcDbScale
 70
     0
300
1:30
140
1.0
141
30.0
290
     0
  0
SCALE
  5
51
102
{ACAD_REACTORS
330
47
102
}
330
47
100
AcDbScale
 70
     0
300
1:40
140
1.0
141
40.0
290
     0
  0
SCALE
  5
52
102
{ACAD_REACTORS
330
47
102
}
330
47
100
AcDbScale
 70
     0
300
1:50
140
1.0
141
50.0
290
     0
  0
SCALE
  5
53
102
{ACAD_REACTORS
330
47
102
}
330
47
100
AcDbScale
 70
     0
300
1:100
140
1.0
141
100.0
290
     0
  0
SCALE
  5
54
102
{ACAD_REACTORS
330
47
102
}
330
47
100
AcDbScale
 70
     0
300
2:1
140
2.0
141
1.0
290
     0
  0
SCALE
  5
55
102
{ACAD_REACTORS
330
47
102
}
330
47
100
AcDbScale
 70
     0
300
4:1
140
4.0
141
1.0
290
     0
  0
SCALE
  5
56
102
{ACAD_REACTORS
330
47
102
}
330
47
100
AcDbScale
 70
     0
300
8:1
140
8.0
141
1.0
290
     0
  0
SCALE
  5
57
102
{ACAD_REACTORS
330
47
102
}
330
47
100
AcDbScale
 70
     0
300
10:1
140
10.0
141
1.0
290
     0
  0
SCALE
  5
58
102
{ACAD_REACTORS
330
47
102
}
330
47
100
AcDbScale
 70
     0
300
100:1
140
100.0
141
1.0
290
     0
  0
SCALE
  5
59
102
{ACAD_REACTORS
330
47
102
}
330
47
100
AcDbScale
 70
     0
300
1/128" = 1'-0"
140
0.0078125
141
12.0
290
     0
  0
SCALE
  5
5A
102
{ACAD_REACTORS
330
47
102
}
330
47
100
AcDbScale
 70
     0
300
1/64" = 1'-0"
140
0.015625
141
12.0
290
     0
  0
SCALE
  5
5B
102
{ACAD_REACTORS
330
47
102
}
330
47
100
AcDbScale
 70
     0
300
1/32" = 1'-0"
140
0.03125
141
12.0
290
     0
  0
SCALE
  5
5C
102
{ACAD_REACTORS
330
47
102
}
330
47
100
AcDbScale
 70
     0
300
1/16" = 1'-0"
140
0.0625
141
12.0
290
     0
  0
SCALE
  5
5D
102
{ACAD_REACTORS
330
47
102
}
330
47
100
AcDbScale
 70
     0
300
3/32" = 1'-0"
140
0.09375
141
12.0
290
     0
  0
SCALE
  5
5E
102
{ACAD_REACTORS
330
47
102
}
330
47
100
AcDbScale
 70
     0
300
1/8" = 1'-0"
140
0.125
141
12.0
290
     0
  0
SCALE
  5
5F
102
{ACAD_REACTORS
330
47
102
}
330
47
100
AcDbScale
 70
     0
300
3/16" = 1'-0"
140
0.1875
141
12.0
290
     0
  0
SCALE
  5
60
102
{ACAD_REACTORS
330
47
102
}
330
47
100
AcDbScale
 70
     0
300
1/4" = 1'-0"
140
0.25
141
12.0
290
     0
  0
SCALE
  5
61
102
{ACAD_REACTORS
330
47
102
}
330
47
100
AcDbScale
 70
     0
300
3/8" = 1'-0"
140
0.375
141
12.0
290
     0
  0
SCALE
  5
62
102
{ACAD_REACTORS
330
47
102
}
330
47
100
AcDbScale
 70
     0
300
1/2" = 1'-0"
140
0.5
141
12.0
290
     0
  0
SCALE
  5
63
102
{ACAD_REACTORS
330
47
102
}
330
47
100
AcDbScale
 70
     0
300
3/4" = 1'-0"
140
0.75
141
12.0
290
     0
  0
SCALE
  5
64
102
{ACAD_REACTORS
330
47
102
}
330
47
100
AcDbScale
 70
     0
300
1" = 1'-0"
140
1.0
141
12.0
290
     0
  0
SCALE
  5
65
102
{ACAD_REACTORS
330
47
102
}
330
47
100
AcDbScale
 70
     0
300
1-1/2" = 1'-0"
140
1.5
141
12.0
290
     0
  0
SCALE
  5
66
102
{ACAD_REACTORS
330
47
102
}
330
47
100
AcDbScale
 70
     0
300
3" = 1'-0"
140
3.0
141
12.0
290
     0
  0
SCALE
  5
67
102
{ACAD_REACTORS
330
47
102
}
330
47
100
AcDbScale
 70
     0
300
6" = 1'-0"
140
6.0
141
12.0
290
     0
  0
SCALE
  5
68
102
{ACAD_REACTORS
330
47
102
}
330
47
100
AcDbScale
 70
     0
300
1'-0" = 1'-0"
140
12.0
141
12.0
290
     0
  0
ENDSEC
  0
EOF
